Guitar scales tabs for pros and noobs

Svetlana June 06 2022

If you're a guitar player, then you know that scales are an essential part of your toolkit. But what if you're just starting out? Or what if you've been playing for a while but still feel like you're not quite sure how to use them?

Never fear! In this article, we'll take a look at some basic guitar scale tabs. We'll start with the major scale, which is the most common one. Then we'll move on to the minor scale, which is used in a lot of popular songs. And finally, we'll check out the pentatonic scale, which is great for soloing.

In this article, we provide the most popular guitar scales tabs that you may use as a source of inspiration. Scales are made up of notes that sound pleasant together. The fundamental frequencies at which notes in a scale are played are arranged in ascending order. For example, the A major scale starts on A, and it is named after this note. The A major scale is based on A as the root note, for example.

So, what are different types of scales?

And how do you use them?

Guitar scales can broadly be classified into two types - major and minor. The major scale is the most commonly used one, while the minor scale is used in a lot of popular songs. The pentatonic scale is another type of scale that is widely used in guitar playing. This scale consists of five notes, and it is great for soloing.

The major and minor scales are the two most widely employed scales in popular music genres. Each of these two scales has seven notes. The pentatonic scale, which is also referred to as the five-note scale, is a well-known scale that has been utilized extensively across many genres, including Rock Music. This scale contains five notes, as the name implies. The blues scale is largely used in Blues Music. Jazz uses a variety of scales as well.

The major scale is the most commonly used one, while the minor scale is used in a lot of popular songs. The pentatonic scale is another type of scale that is widely used in guitar playing. This scale consists of five notes, and it is great for soloing. Let's take a look at each one of these scales in more detail.

Details about guitar scales

The major scale is the most commonly used one, while the minor scale is used in a lot of popular songs. The pentatonic scale is another type of scale that is widely used in guitar playing. This scale consists of five notes, and it is great for soloing.

The major scale is made up of seven notes, with each note being separated by a whole step. A whole step is a distance between two notes on the guitar fretboard. The major scale pattern starts on the root note, and the other six notes are located at intervals of a whole step. The root note is also known as the tonic. This note gives its name to the scale, and it is also the starting note of the scale. The major scale pattern contains all-natural notes, which are notes that are not altered by accidentals.

The minor scale is made up of seven notes as well, with each note being separated by a whole step. However, unlike the major scale, the minor scale has a flattened third degree. This means that the third note of the minor scale is a half step lower than the third note of the major scale. The minor scale also has a flattened seventh degree, which means that the seventh note is a half step lower than the seventh note of the major scale. The minor scale pattern contains all-natural notes, with the exception of the third and seventh degrees, which are flattened.

The pentatonic scale is made up of five notes, and it is one of the most commonly used scales in guitar playing. This scale is great for soloing, as it sounds good over almost any chord progression. The pentatonic scale pattern starts on the root note, and the other four notes are located at intervals of a whole step. The root note is also known as the tonic. This note gives its name to the scale, and it is also the starting note of the scale.

The blues scale is made up of six notes, and it is commonly used in blues music. This scale has a flattened third degree, as well as a flattened fifth and seventh degree. You will find that the flattened third-degree gives the scale a Bluesy sound. The flattened fifth and seventh-degree give the scale a minor pentatonic feel.

The jazz scale is a type of scale that is used extensively in jazz music. This scale can be made up of either six or seven notes. If the scale contains six notes, it is known as a hexatonic scale. If the scale contains seven notes, it is known as a heptatonic scale. Jazz scales are often used in improvisation, as they provide a lot of options for creating interesting melodies. Now that you know about the different types of guitar scales, you can start to incorporate them into your playing.

What guitar scales to learn first?

The minor pentatonic scale should be your first guitar scale. The minor pentatonic scale may be used in a variety of genres, but it's particularly effective in rock and blues music, so learning it is simple. That is because the notes of the minor pentatonic scale can be found in the open position. The open position is when the first fret is pressed down with the index finger, and the other fingers are not used.

Guitar scale tabs for any level

There are two main types of scales: major and minor. The major scale is the most common one, while the minor scale is used in a lot of popular songs. Here are some tabs examples that show the major and minor scale patterns.

C Major Scale starting on the A or 5th string

e|-----------------------------------------------|

B|-----------------------------------------------|

G|-----------------2--4--5--4--2-----------------|

D|--------2--3--5-----------------5--3--2--------|

A|--3--5-----------------------------------5--3--|

E|-----------------------------------------------|

C Natural Minor Scale starting on the D String

e|--------------------------------------------------------------|

B|--------------------------11--13--11--------------------------|

G|--------------10--12--13--------------13--12--10--------------|

D|--10--12--13--------------------------------------13--12--10--|

A|--------------------------------------------------------------|

E|--------------------------------------------------------------|

D Major Pentatonic Scale Pattern

e|----------------------------------7--10--|

B|---------------------------7--10---------|

G|---------------------7--9----------------|

D|---------------7--9----------------------|

A|---------7--9----------------------------|

E|--7--10----------------------------------|

e|--10--7----------------------------------|

B|---------10--7---------------------------|

G|----------------9--7---------------------|

D|----------------------9--7---------------|

A|----------------------------9--7---------|

E|----------------------------------10--7--|

D minor Pentatonic Scale Pattern

e|--------------------------------1--3--|

B|--------------------------1--3--------|

G|--------------------0--2--------------|

D|--------------0--3--------------------|

A|--------0--3--------------------------|

E|--1--3--------------------------------|

e|--3--1--------------------------------|

B|--------3--1--------------------------|

G|--------------2--0--------------------|

D|--------------------3--0--------------|

A|--------------------------3--0--------|

E|--------------------------------3--1--|

E Major Blues Scale Tabs

e|-----------------------------------2--3--4--|

B|-----------------------------2--5-----------|

G|-----------------------1--4-----------------|

D|-----------------2--4-----------------------|

A|-----------2--4-----------------------------|

E|--2--3--4-----------------------------------|

e|--4--3--2-----------------------------------|

B|-----------5--2-----------------------------|

G|-----------------4--1-----------------------|

D|-----------------------4--2-----------------|

A|-----------------------------4--2-----------|

E|-----------------------------------4--3--2--|

E Blues Scale Tabs

e|--------------------------------------------10--12--|

B|--------------------------------10--11--12----------|

G|-------------------------9--12----------------------|

D|------------------9--12-----------------------------|

A|----------10--12------------------------------------|

E|--10--12--------------------------------------------|

e|--12--10--------------------------------------------|

B|----------12--11--10--------------------------------|

G|----------------------12--9-------------------------|

D|-----------------------------12--9------------------|

A|------------------------------------12--10----------|

E|--------------------------------------------12--10--|

Root Note on the 5th String

e|------------------------------------------------------|

B|------------------------------------------------------|

G|-----------------------9--10--9-----------------------|

D|------------8--10--11------------11--10--8------------|

A|--8--9--12----------------------------------12--9--8--|

E|------------------------------------------------------|

Root Note on the 3rd String

e|--------------------------12--13--12--------------------------|

B|--------------12--13--14--------------14--13--12--------------|

G|--10--12--13--------------------------------------13--12--10--|

D|--------------------------------------------------------------|

A|--------------------------------------------------------------|

E|--------------------------------------------------------------|

These are just several tabs examples for your guitar scale practice. Use a metronome to keep good time and play along with a recording if you can. Don't get too bogged down in theory, just have fun and enjoy playing your guitar scales!

How do you memorize guitar scales?

One of the most complicated tasks is to remember all the notes on the fretboard. It's even more difficult when you have to learn different guitar scales. A good method to keep all the notes in your mind is to use a guitar scale chart. By using a chart, you can see all the notes of a guitar scale at once and memorize them quickly.

Another way to memorize guitar scales is to practice regularly. The more you play, the more familiar you'll become with the shapes and patterns of different scales. You can also try improvising over a backing track to get comfortable with soloing in different keys.

Also, you can try using a guitar scale app to help you memorize scales. There are many different apps available, and they can be a great tool to help you learn and memorize new scales.

Should I learn chords or scales first?

Both scales and chords should be learned at the same time. All music has a harmonic component (chords) and a melodic component (scales). Both scales and chords are required to play music on the guitar.

In general, when a beginner starts to learn scale tabs, they should also learn some basic chords. This will help them to understand how the two concepts are related and how they can be used together to create music. And when you start with learning chords, you should also learn some basic scale patterns. This will help you understand how the notes of a chord relate to each other and how they can be used to create melodies.

Learning both scales and chords at the same time is the best way to become a well-rounded guitar player. But for the beginners, it might be better to start with learning chords, and then move on to learning scales.

How do guitar scales affect your play level?

When you already know how to play the guitar and can play some songs, you might think that learning scales is a waste of time. After all, what do they have to do with playing the guitar? However, just like learning any new skill, practicing guitar scales can help you to improve your overall technique and ability on the instrument. Guitar scales can help you to:

  • Improve your finger dexterity and coordination
  • Learn how to change between chords more smoothly
  • Enhance your sense of timing and rhythm
  • Help you to understand the fretboard better
  • Give you a greater range of options when soloing
  • And much more!

In short, taking the time to learn guitar scales can ultimately make you a better guitar player. So, if you're looking to take your guitar skills to the next level, learning some scales is a great place to start.

Can you play a scale in any order?

A scale is a pattern of ascending notes, and each note characteristic to the scale can be seen as a measure apart. It mustn't be any collection of notes in any order, because even altering the distances between the notes changes things. A scale is an exact measure, with a series of intervals that create the pattern.

You can't just play a scale in any order and call it a day. You have to follow the correct order of notes to create the desired sound. This is why learning guitar scales can be so important - it helps you to understand how music works and how to create different sounds on the guitar. However, when you see the tabs and still play in any order, it just means that the order of the notes doesn't matter. The point is to focus on the sound of each note and how it relates to the other notes in the scale.

As you can see, learning guitar scales can be a bit tricky. But with some practice, you'll be able to memorize them quickly and easily. And once you do, you'll be able to use them to improve your guitar playing in all sorts of ways. So, don't be discouraged - keep practicing, and you'll get there in no time!

Conclusion

Guitar scale tabs are a great way to improve your guitar playing skills. By learning scales, you can improve your finger dexterity, timing, and rhythm. You can also better understand the fretboard and how to solo. Moreover, for beginners, it might be better to start with learning chords, and then move on to learning scales. So, don't hesitate - start practicing today! And if you are a pro, don't forget to use guitar scales to take your skills to the next level.